type='text/javascript'/>

Seguidores

5.3.12

Black Style - Marca do Grelo - Tocando no Cavaquinho - CIFRA (TABLADURA DOS SOLOS)





PRIMEIRA PARTE - INTRO

B-----0 0 0 0 0-------------5-------------------------------------------------------------------------------
G----------1--------------2---------------------------------------------------------------------------------
B----------------0------------------------------------------------------------------------------------------


B-----0 0 0 0 0-------------5-------------------------------------------------------------------------------
G----------1--------------2---------------------------------------------------------------------------------
B--0-2-0----------------------------------------------------------------------------------------------------

SEGUNDA PARTE - INTRO

B------------------5-0-5-0---------------------------------------------------------------------------------
G----------2-1----------------------------------------------------------------------------------------------
D---------------------------4-------------------------------------------------------------------------------


B------------------5-0-5-0---------------------------------------------------------------------------------
G----------2-1----------------------------------------------------------------------------------------------
D---------------------------2-------------------------------------------------------------------------------


B------------------5-0-5-0-5-0-5-0-5-0-5-0---------------------------------------------------------------
G----------2-1----------------------------------------------------------------------------------------------
D---------------------------2-------------------------------------------------------------------------------

TERCEIRA PARTE - INTRO (♫♪ ESSA É NOVA NÃO ACREDITEM NÃO ♫♪)

G----------1-2----------------------------------------------------------------------------------------------
B------------0----------------------------------------------------------------------------------------------
G-------------2-1-------------------------------------------------------------------------------------------
D-------------------4---------------------------------------------------------------------------------------

G----------1-2----------------------------------------------------------------------------------------------
B------------0----------------------------------------------------------------------------------------------
G-------------2-1-------------------------------------------------------------------------------------------
D-------------------2---------------------------------------------------------------------------------------


REFRÃO

B----------------5-0-5-0-9-8-7-0-7-0-10-0-9-0-5--------------------------------------------------------






Um comentário:

  1. passa esse solo em escrito, em numeros por favor ?

    ResponderExcluir

GALERA,NÃO ESQUEÇAM DE POR O NOME DE VC'S SE POSSÍVEL...

SE VOCÊ É GUETTHO E NÃO É DE SALVADOR DIZ A SUA CIDADE AÊ PRA GENTE!?

Os comentários que tiverem palavrões serão excluidos.

OBGRIGAO PELO COMENTÁRIO.ELES SÃO MUITO IMPORTANTES.